ISO-10303-21;
HEADER;
FILE_DESCRIPTION (( 'STEP AP203' ),
    '1' );
FILE_NAME ('Q-DWWP-R42-25.4-1064-SH-M.STEP',
    '2020-12-22T08:54:42',
    ( '' ),
    ( '' ),
    'SwSTEP 2.0',
    'SolidWorks 2020',
    '' );
FILE_SCHEMA (( 'CONFIG_CONTROL_DESIGN' ));
ENDSEC;

DATA;
#1 = CARTESIAN_POINT ( 'NONE',  ( 1.500000000000000444, 0.000000000000000000, 3.000000000000000000 ) ) ;
#2 = CARTESIAN_POINT ( 'NONE',  ( -1.500000000000000000, 3.000000000000000000, 0.000000000000000000 ) ) ;
#3 = EDGE_CURVE ( 'NONE', #94, #45, #205, .T. ) ;
#4 = AXIS2_PLACEMENT_3D ( 'NONE', #266, #167, #293 ) ;
#5 = LOCAL_TIME ( 16, 54, 42.00000000000000000, #325 ) ;
#6 = CC_DESIGN_DATE_AND_TIME_ASSIGNMENT ( #118, #202, ( #24 ) ) ;
#7 = DIRECTION ( 'NONE',  ( -1.000000000000000000, -0.000000000000000000, -0.000000000000000000 ) ) ;
#8 = DIRECTION ( 'NONE',  ( -1.000000000000000000, -0.000000000000000000, -0.000000000000000000 ) ) ;
#9 = CALENDAR_DATE ( 2020, 22, 12 ) ;
#10 = PERSON_AND_ORGANIZATION_ROLE ( 'design_owner' ) ;
#11 = ORIENTED_EDGE ( 'NONE', *, *, #90, .T. ) ;
#12 = PERSON_AND_ORGANIZATION ( #170, #221 ) ;
#13 = CC_DESIGN_PERSON_AND_ORGANIZATION_ASSIGNMENT ( #234, #10, ( #58 ) ) ;
#14 = AXIS2_PLACEMENT_3D ( 'NONE', #59, #88, #219 ) ;
#15 = CARTESIAN_POINT ( 'NONE',  ( -1.614212418857619014, 0.000000000000000000, 0.000000000000000000 ) ) ;
#16 = VERTEX_POINT ( 'NONE', #161 ) ;
#17 = ORIENTED_EDGE ( 'NONE', *, *, #65, .F. ) ;
#18 = DIRECTION ( 'NONE',  ( -1.000000000000000000, -0.000000000000000000, -0.000000000000000000 ) ) ;
#19 = LOCAL_TIME ( 16, 54, 42.00000000000000000, #323 ) ;
#20 = FACE_BOUND ( 'NONE', #172, .T. ) ;
#21 = DIRECTION ( 'NONE',  ( 0.000000000000000000, 0.000000000000000000, 1.000000000000000000 ) ) ;
#22 = EDGE_LOOP ( 'NONE', ( #17, #288 ) ) ;
#23 = ORIENTED_EDGE ( 'NONE', *, *, #192, .T. ) ;
#24 = PRODUCT_DEFINITION ( 'UNKNOWN', '', #108, #101 ) ;
#25 = CARTESIAN_POINT ( 'NONE',  ( 1.500000000000000222, 5.000000000000000000, 0.000000000000000000 ) ) ;
#26 = ORIENTED_EDGE ( 'NONE', *, *, #311, .T. ) ;
#27 = CC_DESIGN_APPROVAL ( #57, ( #63 ) ) ;
#28 = DIRECTION ( 'NONE',  ( 0.000000000000000000, 0.000000000000000000, -1.000000000000000000 ) ) ;
#29 = CARTESIAN_POINT ( 'NONE',  ( -1.500000000000000000, 3.673940397442059868E-16, -3.000000000000000000 ) ) ;
#30 = MANIFOLD_SOLID_BREP ( 'Ðý×', #75 ) ;
#31 = PLANE ( 'NONE',  #97 ) ;
#32 = ADVANCED_FACE ( 'NONE', ( #152, #20 ), #235, .F. ) ;
#33 = AXIS2_PLACEMENT_3D ( 'NONE', #318, #8, #117 ) ;
#34 = CARTESIAN_POINT ( 'NONE',  ( -1.614212418857619014, 0.000000000000000000, 0.000000000000000000 ) ) ;
#35 = PERSON_AND_ORGANIZATION_ROLE ( 'classification_officer' ) ;
#36 = DATE_AND_TIME ( #66, #253 ) ;
#37 = AXIS2_PLACEMENT_3D ( 'NONE', #2, #194, #28 ) ;
#38 = LINE ( 'NONE', #333, #92 ) ;
#39 = ADVANCED_FACE ( 'NONE', ( #281 ), #42, .F. ) ;
#40 = DIRECTION ( 'NONE',  ( 0.000000000000000000, 0.000000000000000000, 1.000000000000000000 ) ) ;
#41 = CARTESIAN_POINT ( 'NONE',  ( -0.5000000000000002220, 0.000000000000000000, 0.000000000000000000 ) ) ;
#42 = PLANE ( 'NONE',  #214 ) ;
#43 = DIRECTION ( 'NONE',  ( -1.000000000000000000, -0.000000000000000000, -0.000000000000000000 ) ) ;
#44 = AXIS2_PLACEMENT_3D ( 'NONE', #191, #291, #268 ) ;
#45 = VERTEX_POINT ( 'NONE', #262 ) ;
#46 = VERTEX_POINT ( 'NONE', #238 ) ;
#47 = CC_DESIGN_DATE_AND_TIME_ASSIGNMENT ( #122, #251, ( #63 ) ) ;
#48 = EDGE_LOOP ( 'NONE', ( #137, #72 ) ) ;
#49 = EDGE_LOOP ( 'NONE', ( #289, #264, #188, #312 ) ) ;
#50 = ORIENTED_EDGE ( 'NONE', *, *, #82, .F. ) ;
#51 = LINE ( 'NONE', #304, #298 ) ;
#52 = AXIS2_PLACEMENT_3D ( 'NONE', #103, #21, #157 ) ;
#53 = DIRECTION ( 'NONE',  ( 0.000000000000000000, 0.000000000000000000, 1.000000000000000000 ) ) ;
#54 = ADVANCED_FACE ( 'NONE', ( #207 ), #136, .F. ) ;
#55 = CYLINDRICAL_SURFACE ( 'NONE', #330, 3.000000000000000000 ) ;
#56 = DIRECTION ( 'NONE',  ( -1.000000000000000000, -0.000000000000000000, -0.000000000000000000 ) ) ;
#57 = APPROVAL ( #232, 'UNSPECIFIED' ) ;
#58 = PRODUCT ( 'Q-DWWP-R42-25.4-1064-SH-M', 'Q-DWWP-R42-25.4-1064-SH-M', '', ( #180 ) ) ;
#59 = CARTESIAN_POINT ( 'NONE',  ( -1.500000000000000000, 0.000000000000000000, 0.000000000000000000 ) ) ;
#60 = PERSON_AND_ORGANIZATION ( #170, #221 ) ;
#61 = PERSON_AND_ORGANIZATION ( #170, #221 ) ;
#62 = ORIENTED_EDGE ( 'NONE', *, *, #151, .T. ) ;
#63 = SECURITY_CLASSIFICATION ( '', '', #322 ) ;
#64 = ORIENTED_EDGE ( 'NONE', *, *, #199, .T. ) ;
#65 = EDGE_CURVE ( 'NONE', #201, #46, #246, .T. ) ;
#66 = CALENDAR_DATE ( 2020, 22, 12 ) ;
#67 = AXIS2_PLACEMENT_3D ( 'NONE', #244, #217, #40 ) ;
#68 = FACE_OUTER_BOUND ( 'NONE', #334, .T. ) ;
#69 = UNCERTAINTY_MEASURE_WITH_UNIT (LENGTH_MEASURE( 1.000000000000000082E-05 ), #256, 'distance_accuracy_value', 'NONE');
#70 = DIRECTION ( 'NONE',  ( 0.000000000000000000, 0.000000000000000000, 1.000000000000000000 ) ) ;
#71 = LINE ( 'NONE', #258, #319 ) ;
#72 = ORIENTED_EDGE ( 'NONE', *, *, #114, .T. ) ;
#73 = ADVANCED_FACE ( 'NONE', ( #77 ), #189, .T. ) ;
#74 = CARTESIAN_POINT ( 'NONE',  ( 0.5000000000000004441, 0.000000000000000000, 0.000000000000000000 ) ) ;
#75 = CLOSED_SHELL ( 'NONE', ( #321, #181, #260, #39, #54, #254, #156, #73, #32, #233 ) ) ;
#76 = VERTEX_POINT ( 'NONE', #255 ) ;
#77 = FACE_OUTER_BOUND ( 'NONE', #134, .T. ) ;
#78 = ORIENTED_EDGE ( 'NONE', *, *, #282, .T. ) ;
#79 = ORIENTED_EDGE ( 'NONE', *, *, #222, .F. ) ;
#80 = FACE_OUTER_BOUND ( 'NONE', #48, .T. ) ;
#81 = AXIS2_PLACEMENT_3D ( 'NONE', #15, #18, #259 ) ;
#82 = EDGE_CURVE ( 'NONE', #45, #46, #51, .T. ) ;
#83 = CYLINDRICAL_SURFACE ( 'NONE', #285, 3.000000000000000000 ) ;
#84 = FACE_OUTER_BOUND ( 'NONE', #241, .T. ) ;
#85 = DIRECTION ( 'NONE',  ( -1.000000000000000000, -0.000000000000000000, -0.000000000000000000 ) ) ;
#86 = CC_DESIGN_PERSON_AND_ORGANIZATION_ASSIGNMENT ( #60, #168, ( #108 ) ) ;
#87 = VECTOR ( 'NONE', #332, 1000.000000000000000 ) ;
#88 = DIRECTION ( 'NONE',  ( -1.000000000000000000, -0.000000000000000000, -0.000000000000000000 ) ) ;
#89 = APPROVAL_ROLE ( '' ) ;
#90 = EDGE_CURVE ( 'NONE', #209, #216, #71, .T. ) ;
#91 = COORDINATED_UNIVERSAL_TIME_OFFSET ( 8, 0, .AHEAD. ) ;
#92 = VECTOR ( 'NONE', #284, 1000.000000000000000 ) ;
#93 = CIRCLE ( 'NONE', #249, 3.000000000000000000 ) ;
#94 = VERTEX_POINT ( 'NONE', #1 ) ;
#95 = EDGE_CURVE ( 'NONE', #109, #16, #110, .T. ) ;
#96 = DATE_AND_TIME ( #198, #19 ) ;
#97 = AXIS2_PLACEMENT_3D ( 'NONE', #269, #139, #247 ) ;
#98 = DIRECTION ( 'NONE',  ( -1.000000000000000000, 0.000000000000000000, -0.000000000000000000 ) ) ;
#99 = APPROVAL_PERSON_ORGANIZATION ( #276, #275, #176 ) ;
#100 = DIRECTION ( 'NONE',  ( 0.000000000000000000, 0.000000000000000000, -1.000000000000000000 ) ) ;
#101 = DESIGN_CONTEXT ( 'detailed design', #328, 'design' ) ;
#102 = DIRECTION ( 'NONE',  ( 0.000000000000000000, 0.000000000000000000, 1.000000000000000000 ) ) ;
#103 = CARTESIAN_POINT ( 'NONE',  ( 0.000000000000000000, 0.000000000000000000, 0.000000000000000000 ) ) ;
#104 = CARTESIAN_POINT ( 'NONE',  ( 1.500000000000000000, 6.123233995736766282E-16, -5.000000000000000000 ) ) ;
#105 = CARTESIAN_POINT ( 'NONE',  ( 1.500000000000000000, 0.000000000000000000, 0.000000000000000000 ) ) ;
#106 = ORIENTED_EDGE ( 'NONE', *, *, #112, .T. ) ;
#107 = CARTESIAN_POINT ( 'NONE',  ( 1.500000000000000444, 0.000000000000000000, 0.000000000000000000 ) ) ;
#108 = PRODUCT_DEFINITION_FORMATION_WITH_SPECIFIED_SOURCE ( 'ANY', '', #58, .NOT_KNOWN. ) ;
#109 = VERTEX_POINT ( 'NONE', #104 ) ;
#110 = LINE ( 'NONE', #240, #87 ) ;
#111 = FACE_OUTER_BOUND ( 'NONE', #153, .T. ) ;
#112 = EDGE_CURVE ( 'NONE', #46, #201, #270, .T. ) ;
#113 = CC_DESIGN_SECURITY_CLASSIFICATION ( #63, ( #108 ) ) ;
#114 = EDGE_CURVE ( 'NONE', #16, #174, #265, .T. ) ;
#115 = LINE ( 'NONE', #295, #154 ) ;
#116 = CC_DESIGN_PERSON_AND_ORGANIZATION_ASSIGNMENT ( #147, #173, ( #24 ) ) ;
#117 = DIRECTION ( 'NONE',  ( 0.000000000000000000, 0.000000000000000000, 1.000000000000000000 ) ) ;
#118 = DATE_AND_TIME ( #9, #206 ) ;
#119 = CIRCLE ( 'NONE', #4, 5.000000000000000000 ) ;
#120 = SHAPE_DEFINITION_REPRESENTATION ( #190, #250 ) ;
#121 = ORIENTED_EDGE ( 'NONE', *, *, #3, .F. ) ;
#122 = DATE_AND_TIME ( #169, #257 ) ;
#123 = AXIS2_PLACEMENT_3D ( 'NONE', #211, #187, #185 ) ;
#124 = CC_DESIGN_APPROVAL ( #316, ( #24 ) ) ;
#125 = APPROVAL_STATUS ( 'not_yet_approved' ) ;
#126 = ORIENTED_EDGE ( 'NONE', *, *, #145, .T. ) ;
#127 = CIRCLE ( 'NONE', #315, 3.000000000000000000 ) ;
#128 = DIRECTION ( 'NONE',  ( -1.000000000000000000, -0.000000000000000000, -0.000000000000000000 ) ) ;
#129 = FACE_OUTER_BOUND ( 'NONE', #49, .T. ) ;
#130 = ORIENTED_EDGE ( 'NONE', *, *, #65, .T. ) ;
#131 = DIRECTION ( 'NONE',  ( -1.000000000000000000, -0.000000000000000000, -0.000000000000000000 ) ) ;
#132 = CYLINDRICAL_SURFACE ( 'NONE', #81, 3.000000000000000000 ) ;
#133 = ORIENTED_EDGE ( 'NONE', *, *, #135, .F. ) ;
#134 = EDGE_LOOP ( 'NONE', ( #162, #126, #78, #158 ) ) ;
#135 = EDGE_CURVE ( 'NONE', #76, #286, #115, .T. ) ;
#136 = CYLINDRICAL_SURFACE ( 'NONE', #196, 3.000000000000000000 ) ;
#137 = ORIENTED_EDGE ( 'NONE', *, *, #175, .T. ) ;
#138 = FACE_BOUND ( 'NONE', #263, .T. ) ;
#139 = DIRECTION ( 'NONE',  ( 1.000000000000000000, 0.000000000000000000, 0.000000000000000000 ) ) ;
#140 = CARTESIAN_POINT ( 'NONE',  ( -1.500000000000000000, 0.000000000000000000, 0.000000000000000000 ) ) ;
#141 = PERSON_AND_ORGANIZATION ( #170, #221 ) ;
#142 = APPROVAL_DATE_TIME ( #96, #316 ) ;
#143 = CIRCLE ( 'NONE', #44, 3.000000000000000000 ) ;
#144 = APPROVAL_PERSON_ORGANIZATION ( #12, #57, #89 ) ;
#145 = EDGE_CURVE ( 'NONE', #109, #261, #119, .T. ) ;
#146 = DATE_AND_TIME ( #300, #5 ) ;
#147 = PERSON_AND_ORGANIZATION ( #170, #221 ) ;
#148 = APPROVAL_DATE_TIME ( #146, #57 ) ;
#149 = AXIS2_PLACEMENT_3D ( 'NONE', #140, #314, #317 ) ;
#150 = DIRECTION ( 'NONE',  ( -1.000000000000000000, -0.000000000000000000, -0.000000000000000000 ) ) ;
#151 = EDGE_CURVE ( 'NONE', #286, #216, #164, .T. ) ;
#152 = FACE_OUTER_BOUND ( 'NONE', #335, .T. ) ;
#153 = EDGE_LOOP ( 'NONE', ( #26, #11, #23, #133 ) ) ;
#154 = VECTOR ( 'NONE', #56, 1000.000000000000000 ) ;
#155 = DIRECTION ( 'NONE',  ( 0.000000000000000000, 0.000000000000000000, 1.000000000000000000 ) ) ;
#156 = ADVANCED_FACE ( 'NONE', ( #138, #80 ), #195, .F. ) ;
#157 = DIRECTION ( 'NONE',  ( 1.000000000000000000, 0.000000000000000000, 0.000000000000000000 ) ) ;
#158 = ORIENTED_EDGE ( 'NONE', *, *, #114, .F. ) ;
#159 = DIRECTION ( 'NONE',  ( -1.000000000000000000, 0.000000000000000000, -0.000000000000000000 ) ) ;
#160 = ORIENTED_EDGE ( 'NONE', *, *, #3, .T. ) ;
#161 = CARTESIAN_POINT ( 'NONE',  ( -1.500000000000000000, 6.123233995736766282E-16, -5.000000000000000000 ) ) ;
#162 = ORIENTED_EDGE ( 'NONE', *, *, #95, .F. ) ;
#163 = CARTESIAN_POINT ( 'NONE',  ( 0.5000000000000002220, 3.000000000000000000, 0.000000000000000000 ) ) ;
#164 = CIRCLE ( 'NONE', #33, 3.000000000000000000 ) ;
#165 = FACE_OUTER_BOUND ( 'NONE', #306, .T. ) ;
#166 = DIRECTION ( 'NONE',  ( 0.000000000000000000, 0.000000000000000000, 1.000000000000000000 ) ) ;
#167 = DIRECTION ( 'NONE',  ( -1.000000000000000000, -0.000000000000000000, -0.000000000000000000 ) ) ;
#168 = PERSON_AND_ORGANIZATION_ROLE ( 'creator' ) ;
#169 = CALENDAR_DATE ( 2020, 22, 12 ) ;
#170 = PERSON ( 'UNSPECIFIED', 'UNSPECIFIED', 'UNSPECIFIED', ('UNSPECIFIED'), ('UNSPECIFIED'), ('UNSPECIFIED') ) ;
#171 = CC_DESIGN_APPROVAL ( #275, ( #108 ) ) ;
#172 = EDGE_LOOP ( 'NONE', ( #160, #313 ) ) ;
#173 = PERSON_AND_ORGANIZATION_ROLE ( 'creator' ) ;
#174 = VERTEX_POINT ( 'NONE', #224 ) ;
#175 = EDGE_CURVE ( 'NONE', #174, #16, #308, .T. ) ;
#176 = APPROVAL_ROLE ( '' ) ;
#177 = AXIS2_PLACEMENT_3D ( 'NONE', #287, #272, #53 ) ;
#178 = DIRECTION ( 'NONE',  ( 0.000000000000000000, 0.000000000000000000, 1.000000000000000000 ) ) ;
#179 = DIRECTION ( 'NONE',  ( -1.000000000000000000, -0.000000000000000000, -0.000000000000000000 ) ) ;
#180 = MECHANICAL_CONTEXT ( 'NONE', #231, 'mechanical' ) ;
#181 = ADVANCED_FACE ( 'NONE', ( #111 ), #83, .F. ) ;
#182 = ORIENTED_EDGE ( 'NONE', *, *, #297, .F. ) ;
#183 = ORIENTED_EDGE ( 'NONE', *, *, #192, .F. ) ;
#184 = AXIS2_PLACEMENT_3D ( 'NONE', #74, #283, #155 ) ;
#185 = DIRECTION ( 'NONE',  ( 0.000000000000000000, 0.000000000000000000, 1.000000000000000000 ) ) ;
#186 = ORIENTED_EDGE ( 'NONE', *, *, #151, .F. ) ;
#187 = DIRECTION ( 'NONE',  ( -1.000000000000000000, -0.000000000000000000, -0.000000000000000000 ) ) ;
#188 = ORIENTED_EDGE ( 'NONE', *, *, #175, .F. ) ;
#189 = CYLINDRICAL_SURFACE ( 'NONE', #67, 5.000000000000000000 ) ;
#190 = PRODUCT_DEFINITION_SHAPE ( 'NONE', 'NONE',  #24 ) ;
#191 = CARTESIAN_POINT ( 'NONE',  ( -0.5000000000000002220, 0.000000000000000000, 0.000000000000000000 ) ) ;
#192 = EDGE_CURVE ( 'NONE', #216, #286, #294, .T. ) ;
#193 = PRODUCT_RELATED_PRODUCT_CATEGORY ( 'detail', '', ( #58 ) ) ;
#194 = DIRECTION ( 'NONE',  ( 1.000000000000000000, 0.000000000000000000, 0.000000000000000000 ) ) ;
#195 = PLANE ( 'NONE',  #37 ) ;
#196 = AXIS2_PLACEMENT_3D ( 'NONE', #215, #179, #102 ) ;
#197 = LINE ( 'NONE', #271, #279 ) ;
#198 = CALENDAR_DATE ( 2020, 22, 12 ) ;
#199 = EDGE_CURVE ( 'NONE', #94, #201, #197, .T. ) ;
#200 = ORIENTED_EDGE ( 'NONE', *, *, #145, .F. ) ;
#201 = VERTEX_POINT ( 'NONE', #218 ) ;
#202 = DATE_TIME_ROLE ( 'creation_date' ) ;
#203 = DIRECTION ( 'NONE',  ( 0.000000000000000000, 0.000000000000000000, 1.000000000000000000 ) ) ;
#204 = EDGE_CURVE ( 'NONE', #209, #76, #143, .T. ) ;
#205 = CIRCLE ( 'NONE', #227, 3.000000000000000000 ) ;
#206 = LOCAL_TIME ( 16, 54, 42.00000000000000000, #230 ) ;
#207 = FACE_OUTER_BOUND ( 'NONE', #290, .T. ) ;
#208 =( NAMED_UNIT ( * ) SI_UNIT ( $, .STERADIAN. ) SOLID_ANGLE_UNIT ( ) );
#209 = VERTEX_POINT ( 'NONE', #223 ) ;
#210 = APPLICATION_PROTOCOL_DEFINITION ( 'international standard', 'config_control_design', 1994, #231 ) ;
#211 = CARTESIAN_POINT ( 'NONE',  ( 0.5000000000000004441, 0.000000000000000000, 0.000000000000000000 ) ) ;
#212 = CARTESIAN_POINT ( 'NONE',  ( -1.614212418857619014, 0.000000000000000000, 0.000000000000000000 ) ) ;
#213 = ORIENTED_EDGE ( 'NONE', *, *, #82, .T. ) ;
#214 = AXIS2_PLACEMENT_3D ( 'NONE', #163, #98, #303 ) ;
#215 = CARTESIAN_POINT ( 'NONE',  ( -1.614212418857619014, 0.000000000000000000, 0.000000000000000000 ) ) ;
#216 = VERTEX_POINT ( 'NONE', #29 ) ;
#217 = DIRECTION ( 'NONE',  ( -1.000000000000000000, -0.000000000000000000, -0.000000000000000000 ) ) ;
#218 = CARTESIAN_POINT ( 'NONE',  ( 0.5000000000000004441, 0.000000000000000000, 3.000000000000000000 ) ) ;
#219 = DIRECTION ( 'NONE',  ( 0.000000000000000000, 0.000000000000000000, 1.000000000000000000 ) ) ;
#220 = AXIS2_PLACEMENT_3D ( 'NONE', #212, #43, #307 ) ;
#221 = ORGANIZATION ( 'UNSPECIFIED', 'UNSPECIFIED', '' ) ;
#222 = EDGE_CURVE ( 'NONE', #45, #94, #93, .T. ) ;
#223 = CARTESIAN_POINT ( 'NONE',  ( -0.5000000000000002220, 3.673940397442059868E-16, -3.000000000000000000 ) ) ;
#224 = CARTESIAN_POINT ( 'NONE',  ( -1.500000000000000000, 0.000000000000000000, 5.000000000000000000 ) ) ;
#225 = CARTESIAN_POINT ( 'NONE',  ( -1.614212418857619014, 0.000000000000000000, 0.000000000000000000 ) ) ;
#226 = CC_DESIGN_PERSON_AND_ORGANIZATION_ASSIGNMENT ( #141, #35, ( #63 ) ) ;
#227 = AXIS2_PLACEMENT_3D ( 'NONE', #107, #128, #70 ) ;
#228 = APPROVAL_STATUS ( 'not_yet_approved' ) ;
#229 =( GEOMETRIC_REPRESENTATION_CONTEXT ( 3 ) GLOBAL_UNCERTAINTY_ASSIGNED_CONTEXT ( ( #69 ) ) GLOBAL_UNIT_ASSIGNED_CONTEXT ( ( #256, #327, #208 ) ) REPRESENTATION_CONTEXT ( 'NONE', 'WORKASPACE' ) );
#230 = COORDINATED_UNIVERSAL_TIME_OFFSET ( 8, 0, .AHEAD. ) ;
#231 = APPLICATION_CONTEXT ( 'configuration controlled 3d designs of mechanical parts and assemblies' ) ;
#232 = APPROVAL_STATUS ( 'not_yet_approved' ) ;
#233 = ADVANCED_FACE ( 'NONE', ( #165 ), #31, .F. ) ;
#234 = PERSON_AND_ORGANIZATION ( #170, #221 ) ;
#235 = PLANE ( 'NONE',  #302 ) ;
#236 = DIRECTION ( 'NONE',  ( 1.000000000000000000, 0.000000000000000000, 0.000000000000000000 ) ) ;
#237 = CIRCLE ( 'NONE', #273, 5.000000000000000000 ) ;
#238 = CARTESIAN_POINT ( 'NONE',  ( 0.5000000000000004441, 3.673940397442059868E-16, -3.000000000000000000 ) ) ;
#239 = ORIENTED_EDGE ( 'NONE', *, *, #199, .F. ) ;
#240 = CARTESIAN_POINT ( 'NONE',  ( -1.614212418857619014, 6.123233995736766282E-16, -5.000000000000000000 ) ) ;
#241 = EDGE_LOOP ( 'NONE', ( #243, #299, #252, #62 ) ) ;
#242 = DIRECTION ( 'NONE',  ( -1.000000000000000000, -0.000000000000000000, -0.000000000000000000 ) ) ;
#243 = ORIENTED_EDGE ( 'NONE', *, *, #90, .F. ) ;
#244 = CARTESIAN_POINT ( 'NONE',  ( -1.614212418857619014, 0.000000000000000000, 0.000000000000000000 ) ) ;
#245 = DIRECTION ( 'NONE',  ( 0.000000000000000000, 0.000000000000000000, 1.000000000000000000 ) ) ;
#246 = CIRCLE ( 'NONE', #184, 3.000000000000000000 ) ;
#247 = DIRECTION ( 'NONE',  ( 0.000000000000000000, 0.000000000000000000, -1.000000000000000000 ) ) ;
#248 = CARTESIAN_POINT ( 'NONE',  ( 1.500000000000000444, 0.000000000000000000, 0.000000000000000000 ) ) ;
#249 = AXIS2_PLACEMENT_3D ( 'NONE', #248, #85, #245 ) ;
#250 = ADVANCED_BREP_SHAPE_REPRESENTATION ( 'Q-DWWP-R42-25.4-1064-SH-M', ( #30, #52 ), #229 ) ;
#251 = DATE_TIME_ROLE ( 'classification_date' ) ;
#252 = ORIENTED_EDGE ( 'NONE', *, *, #135, .T. ) ;
#253 = LOCAL_TIME ( 16, 54, 42.00000000000000000, #274 ) ;
#254 = ADVANCED_FACE ( 'NONE', ( #84 ), #55, .F. ) ;
#255 = CARTESIAN_POINT ( 'NONE',  ( -0.5000000000000002220, 0.000000000000000000, 3.000000000000000000 ) ) ;
#256 =( LENGTH_UNIT ( ) NAMED_UNIT ( * ) SI_UNIT ( .MILLI., .METRE. ) );
#257 = LOCAL_TIME ( 16, 54, 42.00000000000000000, #91 ) ;
#258 = CARTESIAN_POINT ( 'NONE',  ( -1.614212418857619014, 3.673940397442059868E-16, -3.000000000000000000 ) ) ;
#259 = DIRECTION ( 'NONE',  ( 0.000000000000000000, 0.000000000000000000, 1.000000000000000000 ) ) ;
#260 = ADVANCED_FACE ( 'NONE', ( #68 ), #132, .F. ) ;
#261 = VERTEX_POINT ( 'NONE', #301 ) ;
#262 = CARTESIAN_POINT ( 'NONE',  ( 1.500000000000000444, 3.673940397442059868E-16, -3.000000000000000000 ) ) ;
#263 = EDGE_LOOP ( 'NONE', ( #186, #183 ) ) ;
#264 = ORIENTED_EDGE ( 'NONE', *, *, #95, .T. ) ;
#265 = CIRCLE ( 'NONE', #177, 5.000000000000000000 ) ;
#266 = CARTESIAN_POINT ( 'NONE',  ( 1.500000000000000000, 0.000000000000000000, 0.000000000000000000 ) ) ;
#267 = CC_DESIGN_PERSON_AND_ORGANIZATION_ASSIGNMENT ( #61, #278, ( #108 ) ) ;
#268 = DIRECTION ( 'NONE',  ( 0.000000000000000000, 0.000000000000000000, -1.000000000000000000 ) ) ;
#269 = CARTESIAN_POINT ( 'NONE',  ( -0.5000000000000002220, 3.000000000000000000, 0.000000000000000000 ) ) ;
#270 = CIRCLE ( 'NONE', #123, 3.000000000000000000 ) ;
#271 = CARTESIAN_POINT ( 'NONE',  ( -1.614212418857619014, 0.000000000000000000, 3.000000000000000000 ) ) ;
#272 = DIRECTION ( 'NONE',  ( -1.000000000000000000, -0.000000000000000000, -0.000000000000000000 ) ) ;
#273 = AXIS2_PLACEMENT_3D ( 'NONE', #105, #150, #203 ) ;
#274 = COORDINATED_UNIVERSAL_TIME_OFFSET ( 8, 0, .AHEAD. ) ;
#275 = APPROVAL ( #228, 'UNSPECIFIED' ) ;
#276 = PERSON_AND_ORGANIZATION ( #170, #221 ) ;
#277 = APPLICATION_PROTOCOL_DEFINITION ( 'international standard', 'config_control_design', 1994, #328 ) ;
#278 = PERSON_AND_ORGANIZATION_ROLE ( 'design_supplier' ) ;
#279 = VECTOR ( 'NONE', #320, 1000.000000000000000 ) ;
#280 = CARTESIAN_POINT ( 'NONE',  ( -1.500000000000000000, 0.000000000000000000, 3.000000000000000000 ) ) ;
#281 = FACE_OUTER_BOUND ( 'NONE', #22, .T. ) ;
#282 = EDGE_CURVE ( 'NONE', #261, #174, #38, .T. ) ;
#283 = DIRECTION ( 'NONE',  ( -1.000000000000000000, -0.000000000000000000, -0.000000000000000000 ) ) ;
#284 = DIRECTION ( 'NONE',  ( -1.000000000000000000, -0.000000000000000000, -0.000000000000000000 ) ) ;
#285 = AXIS2_PLACEMENT_3D ( 'NONE', #225, #292, #166 ) ;
#286 = VERTEX_POINT ( 'NONE', #280 ) ;
#287 = CARTESIAN_POINT ( 'NONE',  ( -1.500000000000000000, 0.000000000000000000, 0.000000000000000000 ) ) ;
#288 = ORIENTED_EDGE ( 'NONE', *, *, #112, .F. ) ;
#289 = ORIENTED_EDGE ( 'NONE', *, *, #297, .T. ) ;
#290 = EDGE_LOOP ( 'NONE', ( #50, #121, #64, #130 ) ) ;
#291 = DIRECTION ( 'NONE',  ( 1.000000000000000000, 0.000000000000000000, 0.000000000000000000 ) ) ;
#292 = DIRECTION ( 'NONE',  ( -1.000000000000000000, -0.000000000000000000, -0.000000000000000000 ) ) ;
#293 = DIRECTION ( 'NONE',  ( 0.000000000000000000, 0.000000000000000000, 1.000000000000000000 ) ) ;
#294 = CIRCLE ( 'NONE', #149, 3.000000000000000000 ) ;
#295 = CARTESIAN_POINT ( 'NONE',  ( -1.614212418857619014, 0.000000000000000000, 3.000000000000000000 ) ) ;
#296 = APPROVAL_ROLE ( '' ) ;
#297 = EDGE_CURVE ( 'NONE', #261, #109, #237, .T. ) ;
#298 = VECTOR ( 'NONE', #242, 1000.000000000000000 ) ;
#299 = ORIENTED_EDGE ( 'NONE', *, *, #204, .T. ) ;
#300 = CALENDAR_DATE ( 2020, 22, 12 ) ;
#301 = CARTESIAN_POINT ( 'NONE',  ( 1.500000000000000000, 0.000000000000000000, 5.000000000000000000 ) ) ;
#302 = AXIS2_PLACEMENT_3D ( 'NONE', #25, #159, #329 ) ;
#303 = DIRECTION ( 'NONE',  ( -0.000000000000000000, 0.000000000000000000, 1.000000000000000000 ) ) ;
#304 = CARTESIAN_POINT ( 'NONE',  ( -1.614212418857619014, 3.673940397442059868E-16, -3.000000000000000000 ) ) ;
#305 = CYLINDRICAL_SURFACE ( 'NONE', #220, 5.000000000000000000 ) ;
#306 = EDGE_LOOP ( 'NONE', ( #309, #310 ) ) ;
#307 = DIRECTION ( 'NONE',  ( 0.000000000000000000, 0.000000000000000000, 1.000000000000000000 ) ) ;
#308 = CIRCLE ( 'NONE', #14, 5.000000000000000000 ) ;
#309 = ORIENTED_EDGE ( 'NONE', *, *, #311, .F. ) ;
#310 = ORIENTED_EDGE ( 'NONE', *, *, #204, .F. ) ;
#311 = EDGE_CURVE ( 'NONE', #76, #209, #127, .T. ) ;
#312 = ORIENTED_EDGE ( 'NONE', *, *, #282, .F. ) ;
#313 = ORIENTED_EDGE ( 'NONE', *, *, #222, .T. ) ;
#314 = DIRECTION ( 'NONE',  ( -1.000000000000000000, -0.000000000000000000, -0.000000000000000000 ) ) ;
#315 = AXIS2_PLACEMENT_3D ( 'NONE', #41, #236, #100 ) ;
#316 = APPROVAL ( #125, 'UNSPECIFIED' ) ;
#317 = DIRECTION ( 'NONE',  ( 0.000000000000000000, 0.000000000000000000, 1.000000000000000000 ) ) ;
#318 = CARTESIAN_POINT ( 'NONE',  ( -1.500000000000000000, 0.000000000000000000, 0.000000000000000000 ) ) ;
#319 = VECTOR ( 'NONE', #131, 1000.000000000000000 ) ;
#320 = DIRECTION ( 'NONE',  ( -1.000000000000000000, -0.000000000000000000, -0.000000000000000000 ) ) ;
#321 = ADVANCED_FACE ( 'NONE', ( #129 ), #305, .T. ) ;
#322 = SECURITY_CLASSIFICATION_LEVEL ( 'unclassified' ) ;
#323 = COORDINATED_UNIVERSAL_TIME_OFFSET ( 8, 0, .AHEAD. ) ;
#324 = APPROVAL_DATE_TIME ( #36, #275 ) ;
#325 = COORDINATED_UNIVERSAL_TIME_OFFSET ( 8, 0, .AHEAD. ) ;
#326 = PERSON_AND_ORGANIZATION ( #170, #221 ) ;
#327 =( NAMED_UNIT ( * ) PLANE_ANGLE_UNIT ( ) SI_UNIT ( $, .RADIAN. ) );
#328 = APPLICATION_CONTEXT ( 'configuration controlled 3d designs of mechanical parts and assemblies' ) ;
#329 = DIRECTION ( 'NONE',  ( -0.000000000000000000, 0.000000000000000000, 1.000000000000000000 ) ) ;
#330 = AXIS2_PLACEMENT_3D ( 'NONE', #34, #7, #178 ) ;
#331 = APPROVAL_PERSON_ORGANIZATION ( #326, #316, #296 ) ;
#332 = DIRECTION ( 'NONE',  ( -1.000000000000000000, -0.000000000000000000, -0.000000000000000000 ) ) ;
#333 = CARTESIAN_POINT ( 'NONE',  ( -1.614212418857619014, 0.000000000000000000, 5.000000000000000000 ) ) ;
#334 = EDGE_LOOP ( 'NONE', ( #79, #213, #106, #239 ) ) ;
#335 = EDGE_LOOP ( 'NONE', ( #182, #200 ) ) ;
ENDSEC;
END-ISO-10303-21;
